Here Comes The Sun
1969
gbBeatles (George Harrison)
A7AmBbCDD7Dsus4FGG7
10 chords used in this song
   G         C       D
A|-2-02- -20-- -20-------0
E|--3--3 ---30 ---3--2023-
C|------  ---- -----------
G|------ ----- -----------
   G         C      D
A|-2-02- -20-- -20-------
E|--3--3 ---30 ---3-2/3/5
C|------ ----- -----2/4/6
G|------ ----- ----------
GG7
GHere comes the G7sun
CA7
CHere comes the A7sun, and I say
G
GIt's all right
     C    G    Am   G    D
A|-----0- --0- --0- --0 -----
E|----3-- -3-- -3-- -3- -3202
C|-2/4--- 2--- 0--- 2-- -----
G|------- ---- ---- --- -----
G
GLittle darling
CD
It's been a Clong cold lonely Dwinter
G
GLittle darling
CD
It feels like Cyears since it's been Dhere
GG7
GHere comes the G7sun
CA7
CHere comes the A7sun, and I say
G
GIt's all right
     C    G    Am   G    D    G      D
A|-----0- --0- --0- --0 ----- --2-02 ----0
E|----3-- -3-- -3-- -3- -3202 3--3-- 2023-
C|-2/4--- 2--- 0--- 2-- ----- -2---- -----
G|------- ---- ---- --- ----- ------ -----
G
GLittle darling
CD
The smiles reCturning to the Dfaces
G
GLittle darling
CD
It seems like Cyears since it's been Dhere
GG7
GHere comes the G7sun
CA7
CHere comes the A7sun, and I say
G
GIt's all right
CGAmGD
CGAmGD
GD
GD
BbFCGD
BbFCGD
BbFCGD
BbSun, Fsun, Csun, here it Gcomes D
BbFCGD
BbSun, Fsun, Csun, here it Gcomes D
BbFCGD
BbSun, Fsun, Csun, here it Gcomes D
BbFCGD
BbSun, Fsun, Csun, here it Gcomes D
BbFCGD
BbSun, Fsun, Csun, here it Gcomes D
DDsus4DD7
DDsus4DD7
G
GLittle darling
CD
I feel that Cice is slowly Dmelting
G
GLittle darling
CD
It seems like Cyears since it's been Dclear
GG7
GHere comes the G7sun
CA7
CHere comes the A7sun, and I say
G
GIt's all right
CGAmGD
CGAmGD
GG7
GHere comes the G7sun
CA7
CHere comes the A7sun, and I say
G
GIt's all right
CGAmGD
CGAmGD
G
GIt's all right
CGAmGD
CGAmGD
BbFCG
BbFCG
Back to Songbook
Download song sheet (PDF)
§The Beatles[ A ]