Tequila
1957
usThe Champs
A7C7FG
4 chords used in this song
GFGFGFGF
GFGFGFGF
   G   F G F  G  F G F
A|-----0--- -----0--    (repeat x3)
E|--331-13- --331-13
C|-2------2 -2------
G|--------- --------
   G   F G F  G  F G
A|-----0--- -----0--
E|--331-13- --331-13
C|-2------2 -2------
G|--------- --------
  G   C7 G G   C7 G
A|----1--- ----1---
E|--03---3 --03---3
C|-2------ -2------
G|-------- --------
  G   C7 G A7     D7
A|----1--- 000000-5
E|--03---3 --------
C|-2------ --------
G|-------- --------
Tequila!
repeat ad lib
GFGFGFGF
GFGFGFGF
GFGFGFGF
GFGFGFGF
GFGFGFGF
GFGFGFGF
GFGFGFG
GFGFGFG
C7GC7G
C7GC7G
C7G
C7G
A7D7
A7D7
Back to Songbook
Download song sheet (PDF)
§The Champs[ F ]