Within You Without You
1967
gbGeorge Harrison
C5Csus4
2 chords used in this song
A|----13-1h3-1h3p1--1------ -------
E|-013-------------3-31-0h1 0h1-0--
C|--------------------------------0
G|---------------------------------
C5
C5
We were talking about the space between us all
And the people who hide themselves behind a wall of illusion
Never glimpse the truth then it’s far too late when they pass away
We were talking about the love we all could share when we find it
To try our best to hold it there with our love
With our love we could save the world if they only knew
A|-97-------
E|---97-7-7-
C|-----8-8-8
G|----------
Csus4
Csus4Try to realise it's all within yourself
No-one else can make you change
And to see you're really only very small
And life flows on within you and without you
C5
C5
We were talking about the love that's gone so cold
And the people who gain the world and lose their soul
They don't know
They can't see
Are you one of them?
A|----79-7h9-7h9
E|--79----------
C|-8------------
G|--------------
A|-97-------
E|---97-7-7-
C|-----8-8-8
G|----------
Csus4
Csus4When you've seen beyond yourself
Then you may find peace of mind is waiting there
And the time will come when you see we're all one
And life flows on within you and without you
C5
C5
Back to Songbook
Download song sheet (PDF)
§The Beatles[ C# ]